Posts Tagged ‘TAB’

Puede que hoy sea el día (Acordes)

18 junio 2009
La Buena Vida - Puede que hoy sea el día (http://www.lapaginadelabuenavida.com)

Del EP Viajes por países pequeños (2009)

Transcrito por Andrés Corral (andrescorral@vodafone.es)

He intentado que esté lo más correcto posible aunque, por supuesto, es posible
que haya errores.

Acordes

    E   C#m  G#m  B7  F#m  Faug  C#m/5+ A/5- Asus4 Eaug  A  Dm   G  Eadd13-
E---0----4----4---2----2----2------2-----2-----x-----0---0---5---3----0--------
B---0----5----4---4----2----2------2-----2-----3-----1---2---6---3----1--------
G---1----6----4---2----2----2------2-----2-----2-----1---2---7---4----1--------
D---2----6----6---4----4----3------2-----1-----0-----2---2---7---5----2--------
A---2----4----6---2----4----4------4-----x-----x-----x---0---5---5----2--------
E---x----x----x---x----x----x------x-----x-----x-----x---x---x---x----x--------

    E6  E7  Am   F#  F  Am(2) Cm  Bm
E---0---0----0---2---1---5----3---2---------------------------------------------
B---2---3----1---2---1---5----4---3---------------------------------------------
G---1---1----2---3---2---5----5---4---------------------------------------------
D---2---2----2---4---3---7----5---4---------------------------------------------
A---2---2----0---4---3---7----3---2---------------------------------------------
E---x---x----x---x---x---x----x---x---------------------------------------------

E                 C#m
prefiero morir de sed
         G#m          B7
que estar así toda la vida
E                 C#m
prefiero no volverte a ver
        G#m          B7
pues fue por verte que mordí

F#m                  Faug 
caí fulminado en tus brazos
 C#m/5+       A/5-
te quedaste mi tesoro
 Asus4                E
y ahora simplemente ya no sé vivir
 Eaug
no sé sin ti

E                 C#m
prefiero morir de sed
          G#m          B7
que estar así todo el santo día
E                 C#m
prefiero no volverte a ver
 G#m          B7
pues fue por verte que mordí
F#m                  Faug 
caí fulminado en tus brazos
 C#m/5+       A/5-
te llevaste mi tesoro
 Asus4                E
y ahora simplemente ya no sé vivir
 Eaug    
no sé sin ti

A                Dm   G      A
ahhh  puede que hoy sea el día
 Dm  G          A
en que tú pudieses volver
 Dm     G           A   Eaug
y será una fiesta, vida mía

E                 C#m
prefiero morir de sed
 G#m          B7
que estar así toda la vida
 E                 C#m
prefiero no volverte a ver
 G#m          B7
pues fue por verte que mordí
F#m                  Faug 
caí fulminado en tus brazos
 C#m/5+       A/5-
te llevaste mi tesoro
 Asus4                E
y ahora simplemente ya no sé vivir
 Eaug    
no sé sin ti

A              Dm   G      A
ahhh puede que hoy sea el día
 Dm  G          A
en que tú pudieses volver
 Dm     G           A   Eaug
y será una fiesta, vida mía

E
prefiero morir de sed
Eadd13-
prefiero no volverte a ver
E6
prefiero permanecer
E7                              A
aquí inmutable siempre, todo el día
 Am
por eso me voy
G
prefiero no volverte a ver
 F#        F           E
que ser quien nunca quise ser

(Instrumental)
C#m Am(2) x2

C#m Cm Bm Am

E B7

E Am(2) E